ISO-10303-21;
HEADER;
/* Generated by software containing ST-Developer
 * from STEP Tools, Inc. (www.steptools.com) 
 */

FILE_DESCRIPTION(
/* description */ (''),
/* implementation_level */ '2;1');

FILE_NAME(
/* name */ 
'/Users/nbrown/Documents/3DObjects/Pencil Sharpener/Pencil Sharpener v
5.step',
/* time_stamp */ '2018-02-16T18:54:18-05:00',
/* author */ ('nbrownXDDJA'),
/* organization */ (''),
/* preprocessor_version */ 'ST-DEVELOPER v16.13',
/* originating_system */ 'Autodesk Translation Framework v6.5.0.72',
/* authorisation */ '');

FILE_SCHEMA (('AUTOMOTIVE_DESIGN { 1 0 10303 214 3 1 1 }'));
ENDSEC;

DATA;
#10=MECHANICAL_DESIGN_GEOMETRIC_PRESENTATION_REPRESENTATION('',(#13),#578);
#11=SHAPE_REPRESENTATION_RELATIONSHIP('SRR','None',#585,#12);
#12=ADVANCED_BREP_SHAPE_REPRESENTATION('',(#14),#577);
#13=STYLED_ITEM('',(#594),#14);
#14=MANIFOLD_SOLID_BREP('Body1',#346);
#15=FACE_BOUND('',#55,.T.);
#16=FACE_BOUND('',#61,.T.);
#17=FACE_BOUND('',#63,.T.);
#18=FACE_BOUND('',#72,.T.);
#19=CIRCLE('',#362,27.2842712474619);
#20=CIRCLE('',#363,27.2842712474619);
#21=CIRCLE('',#367,28.2842712474619);
#22=CIRCLE('',#369,28.2842712474619);
#23=CIRCLE('',#374,7.5);
#24=CIRCLE('',#376,25.);
#25=CIRCLE('',#377,7.5);
#26=CIRCLE('',#383,25.);
#27=CYLINDRICAL_SURFACE('',#361,27.2842712474619);
#28=CYLINDRICAL_SURFACE('',#368,28.2842712474619);
#29=CYLINDRICAL_SURFACE('',#378,7.5);
#30=CYLINDRICAL_SURFACE('',#382,25.);
#31=FACE_OUTER_BOUND('',#50,.T.);
#32=FACE_OUTER_BOUND('',#51,.T.);
#33=FACE_OUTER_BOUND('',#52,.T.);
#34=FACE_OUTER_BOUND('',#53,.T.);
#35=FACE_OUTER_BOUND('',#54,.T.);
#36=FACE_OUTER_BOUND('',#56,.T.);
#37=FACE_OUTER_BOUND('',#57,.T.);
#38=FACE_OUTER_BOUND('',#58,.T.);
#39=FACE_OUTER_BOUND('',#59,.T.);
#40=FACE_OUTER_BOUND('',#60,.T.);
#41=FACE_OUTER_BOUND('',#62,.T.);
#42=FACE_OUTER_BOUND('',#64,.T.);
#43=FACE_OUTER_BOUND('',#65,.T.);
#44=FACE_OUTER_BOUND('',#66,.T.);
#45=FACE_OUTER_BOUND('',#67,.T.);
#46=FACE_OUTER_BOUND('',#68,.T.);
#47=FACE_OUTER_BOUND('',#69,.T.);
#48=FACE_OUTER_BOUND('',#70,.T.);
#49=FACE_OUTER_BOUND('',#71,.T.);
#50=EDGE_LOOP('',(#222,#223,#224,#225));
#51=EDGE_LOOP('',(#226,#227,#228,#229));
#52=EDGE_LOOP('',(#230,#231,#232,#233));
#53=EDGE_LOOP('',(#234,#235,#236,#237));
#54=EDGE_LOOP('',(#238,#239,#240,#241));
#55=EDGE_LOOP('',(#242,#243,#244,#245));
#56=EDGE_LOOP('',(#246,#247,#248,#249));
#57=EDGE_LOOP('',(#250,#251,#252,#253));
#58=EDGE_LOOP('',(#254,#255,#256,#257));
#59=EDGE_LOOP('',(#258,#259,#260,#261));
#60=EDGE_LOOP('',(#262,#263,#264,#265));
#61=EDGE_LOOP('',(#266));
#62=EDGE_LOOP('',(#267,#268,#269,#270,#271,#272));
#63=EDGE_LOOP('',(#273));
#64=EDGE_LOOP('',(#274,#275,#276,#277));
#65=EDGE_LOOP('',(#278,#279,#280,#281));
#66=EDGE_LOOP('',(#282,#283,#284,#285));
#67=EDGE_LOOP('',(#286,#287,#288,#289));
#68=EDGE_LOOP('',(#290,#291,#292,#293));
#69=EDGE_LOOP('',(#294,#295,#296,#297));
#70=EDGE_LOOP('',(#298,#299,#300,#301));
#71=EDGE_LOOP('',(#302,#303,#304,#305));
#72=EDGE_LOOP('',(#306,#307,#308,#309,#310,#311));
#73=LINE('',#484,#110);
#74=LINE('',#486,#111);
#75=LINE('',#488,#112);
#76=LINE('',#489,#113);
#77=LINE('',#494,#114);
#78=LINE('',#498,#115);
#79=LINE('',#500,#116);
#80=LINE('',#501,#117);
#81=LINE('',#503,#118);
#82=LINE('',#504,#119);
#83=LINE('',#508,#120);
#84=LINE('',#512,#121);
#85=LINE('',#513,#122);
#86=LINE('',#516,#123);
#87=LINE('',#519,#124);
#88=LINE('',#522,#125);
#89=LINE('',#523,#126);
#90=LINE('',#527,#127);
#91=LINE('',#529,#128);
#92=LINE('',#531,#129);
#93=LINE('',#532,#130);
#94=LINE('',#536,#131);
#95=LINE('',#538,#132);
#96=LINE('',#540,#133);
#97=LINE('',#541,#134);
#98=LINE('',#544,#135);
#99=LINE('',#545,#136);
#100=LINE('',#551,#137);
#101=LINE('',#553,#138);
#102=LINE('',#554,#139);
#103=LINE('',#558,#140);
#104=LINE('',#560,#141);
#105=LINE('',#562,#142);
#106=LINE('',#567,#143);
#107=LINE('',#570,#144);
#108=LINE('',#571,#145);
#109=LINE('',#573,#146);
#110=VECTOR('',#391,10.);
#111=VECTOR('',#392,10.);
#112=VECTOR('',#393,10.);
#113=VECTOR('',#394,10.);
#114=VECTOR('',#399,10.);
#115=VECTOR('',#404,10.);
#116=VECTOR('',#405,10.);
#117=VECTOR('',#406,10.);
#118=VECTOR('',#409,10.);
#119=VECTOR('',#410,10.);
#120=VECTOR('',#413,10.);
#121=VECTOR('',#416,10.);
#122=VECTOR('',#417,10.);
#123=VECTOR('',#420,10.);
#124=VECTOR('',#423,10.);
#125=VECTOR('',#426,10.);
#126=VECTOR('',#427,10.);
#127=VECTOR('',#430,10.);
#128=VECTOR('',#431,10.);
#129=VECTOR('',#432,10.);
#130=VECTOR('',#433,10.);
#131=VECTOR('',#436,10.);
#132=VECTOR('',#437,10.);
#133=VECTOR('',#438,10.);
#134=VECTOR('',#439,10.);
#135=VECTOR('',#442,10.);
#136=VECTOR('',#443,10.);
#137=VECTOR('',#450,10.);
#138=VECTOR('',#451,10.);
#139=VECTOR('',#452,10.);
#140=VECTOR('',#457,7.5);
#141=VECTOR('',#460,10.);
#142=VECTOR('',#463,10.);
#143=VECTOR('',#470,10.);
#144=VECTOR('',#473,10.);
#145=VECTOR('',#474,10.);
#146=VECTOR('',#477,10.);
#147=VERTEX_POINT('',#482);
#148=VERTEX_POINT('',#483);
#149=VERTEX_POINT('',#485);
#150=VERTEX_POINT('',#487);
#151=VERTEX_POINT('',#491);
#152=VERTEX_POINT('',#493);
#153=VERTEX_POINT('',#497);
#154=VERTEX_POINT('',#499);
#155=VERTEX_POINT('',#506);
#156=VERTEX_POINT('',#507);
#157=VERTEX_POINT('',#509);
#158=VERTEX_POINT('',#511);
#159=VERTEX_POINT('',#515);
#160=VERTEX_POINT('',#517);
#161=VERTEX_POINT('',#521);
#162=VERTEX_POINT('',#525);
#163=VERTEX_POINT('',#526);
#164=VERTEX_POINT('',#528);
#165=VERTEX_POINT('',#530);
#166=VERTEX_POINT('',#534);
#167=VERTEX_POINT('',#535);
#168=VERTEX_POINT('',#537);
#169=VERTEX_POINT('',#539);
#170=VERTEX_POINT('',#543);
#171=VERTEX_POINT('',#546);
#172=VERTEX_POINT('',#549);
#173=VERTEX_POINT('',#552);
#174=VERTEX_POINT('',#555);
#175=VERTEX_POINT('',#565);
#176=VERTEX_POINT('',#569);
#177=EDGE_CURVE('',#147,#148,#73,.T.);
#178=EDGE_CURVE('',#147,#149,#74,.T.);
#179=EDGE_CURVE('',#149,#150,#75,.T.);
#180=EDGE_CURVE('',#148,#150,#76,.T.);
#181=EDGE_CURVE('',#151,#147,#19,.T.);
#182=EDGE_CURVE('',#151,#152,#77,.T.);
#183=EDGE_CURVE('',#152,#149,#20,.T.);
#184=EDGE_CURVE('',#153,#151,#78,.T.);
#185=EDGE_CURVE('',#153,#154,#79,.T.);
#186=EDGE_CURVE('',#154,#152,#80,.T.);
#187=EDGE_CURVE('',#148,#153,#81,.T.);
#188=EDGE_CURVE('',#150,#154,#82,.T.);
#189=EDGE_CURVE('',#155,#156,#83,.T.);
#190=EDGE_CURVE('',#157,#155,#21,.T.);
#191=EDGE_CURVE('',#158,#157,#84,.T.);
#192=EDGE_CURVE('',#156,#158,#85,.T.);
#193=EDGE_CURVE('',#155,#159,#86,.T.);
#194=EDGE_CURVE('',#160,#159,#22,.T.);
#195=EDGE_CURVE('',#157,#160,#87,.T.);
#196=EDGE_CURVE('',#156,#161,#88,.T.);
#197=EDGE_CURVE('',#159,#161,#89,.T.);
#198=EDGE_CURVE('',#162,#163,#90,.T.);
#199=EDGE_CURVE('',#162,#164,#91,.T.);
#200=EDGE_CURVE('',#165,#164,#92,.T.);
#201=EDGE_CURVE('',#163,#165,#93,.T.);
#202=EDGE_CURVE('',#166,#167,#94,.T.);
#203=EDGE_CURVE('',#166,#168,#95,.T.);
#204=EDGE_CURVE('',#169,#168,#96,.T.);
#205=EDGE_CURVE('',#167,#169,#97,.T.);
#206=EDGE_CURVE('',#161,#170,#98,.T.);
#207=EDGE_CURVE('',#170,#160,#99,.T.);
#208=EDGE_CURVE('',#171,#171,#23,.T.);
#209=EDGE_CURVE('',#172,#169,#24,.T.);
#210=EDGE_CURVE('',#168,#165,#100,.T.);
#211=EDGE_CURVE('',#164,#173,#101,.T.);
#212=EDGE_CURVE('',#173,#172,#102,.T.);
#213=EDGE_CURVE('',#174,#174,#25,.T.);
#214=EDGE_CURVE('',#174,#171,#103,.T.);
#215=EDGE_CURVE('',#163,#166,#104,.T.);
#216=EDGE_CURVE('',#158,#170,#105,.T.);
#217=EDGE_CURVE('',#167,#175,#26,.T.);
#218=EDGE_CURVE('',#175,#172,#106,.T.);
#219=EDGE_CURVE('',#175,#176,#107,.T.);
#220=EDGE_CURVE('',#176,#173,#108,.T.);
#221=EDGE_CURVE('',#176,#162,#109,.T.);
#222=ORIENTED_EDGE('',*,*,#177,.F.);
#223=ORIENTED_EDGE('',*,*,#178,.T.);
#224=ORIENTED_EDGE('',*,*,#179,.T.);
#225=ORIENTED_EDGE('',*,*,#180,.F.);
#226=ORIENTED_EDGE('',*,*,#181,.F.);
#227=ORIENTED_EDGE('',*,*,#182,.T.);
#228=ORIENTED_EDGE('',*,*,#183,.T.);
#229=ORIENTED_EDGE('',*,*,#178,.F.);
#230=ORIENTED_EDGE('',*,*,#184,.F.);
#231=ORIENTED_EDGE('',*,*,#185,.T.);
#232=ORIENTED_EDGE('',*,*,#186,.T.);
#233=ORIENTED_EDGE('',*,*,#182,.F.);
#234=ORIENTED_EDGE('',*,*,#187,.F.);
#235=ORIENTED_EDGE('',*,*,#180,.T.);
#236=ORIENTED_EDGE('',*,*,#188,.T.);
#237=ORIENTED_EDGE('',*,*,#185,.F.);
#238=ORIENTED_EDGE('',*,*,#189,.F.);
#239=ORIENTED_EDGE('',*,*,#190,.F.);
#240=ORIENTED_EDGE('',*,*,#191,.F.);
#241=ORIENTED_EDGE('',*,*,#192,.F.);
#242=ORIENTED_EDGE('',*,*,#188,.F.);
#243=ORIENTED_EDGE('',*,*,#179,.F.);
#244=ORIENTED_EDGE('',*,*,#183,.F.);
#245=ORIENTED_EDGE('',*,*,#186,.F.);
#246=ORIENTED_EDGE('',*,*,#190,.T.);
#247=ORIENTED_EDGE('',*,*,#193,.T.);
#248=ORIENTED_EDGE('',*,*,#194,.F.);
#249=ORIENTED_EDGE('',*,*,#195,.F.);
#250=ORIENTED_EDGE('',*,*,#189,.T.);
#251=ORIENTED_EDGE('',*,*,#196,.T.);
#252=ORIENTED_EDGE('',*,*,#197,.F.);
#253=ORIENTED_EDGE('',*,*,#193,.F.);
#254=ORIENTED_EDGE('',*,*,#198,.F.);
#255=ORIENTED_EDGE('',*,*,#199,.T.);
#256=ORIENTED_EDGE('',*,*,#200,.F.);
#257=ORIENTED_EDGE('',*,*,#201,.F.);
#258=ORIENTED_EDGE('',*,*,#202,.F.);
#259=ORIENTED_EDGE('',*,*,#203,.T.);
#260=ORIENTED_EDGE('',*,*,#204,.F.);
#261=ORIENTED_EDGE('',*,*,#205,.F.);
#262=ORIENTED_EDGE('',*,*,#197,.T.);
#263=ORIENTED_EDGE('',*,*,#206,.T.);
#264=ORIENTED_EDGE('',*,*,#207,.T.);
#265=ORIENTED_EDGE('',*,*,#194,.T.);
#266=ORIENTED_EDGE('',*,*,#208,.T.);
#267=ORIENTED_EDGE('',*,*,#209,.T.);
#268=ORIENTED_EDGE('',*,*,#204,.T.);
#269=ORIENTED_EDGE('',*,*,#210,.T.);
#270=ORIENTED_EDGE('',*,*,#200,.T.);
#271=ORIENTED_EDGE('',*,*,#211,.T.);
#272=ORIENTED_EDGE('',*,*,#212,.T.);
#273=ORIENTED_EDGE('',*,*,#213,.T.);
#274=ORIENTED_EDGE('',*,*,#213,.F.);
#275=ORIENTED_EDGE('',*,*,#214,.T.);
#276=ORIENTED_EDGE('',*,*,#208,.F.);
#277=ORIENTED_EDGE('',*,*,#214,.F.);
#278=ORIENTED_EDGE('',*,*,#215,.F.);
#279=ORIENTED_EDGE('',*,*,#201,.T.);
#280=ORIENTED_EDGE('',*,*,#210,.F.);
#281=ORIENTED_EDGE('',*,*,#203,.F.);
#282=ORIENTED_EDGE('',*,*,#191,.T.);
#283=ORIENTED_EDGE('',*,*,#195,.T.);
#284=ORIENTED_EDGE('',*,*,#207,.F.);
#285=ORIENTED_EDGE('',*,*,#216,.F.);
#286=ORIENTED_EDGE('',*,*,#192,.T.);
#287=ORIENTED_EDGE('',*,*,#216,.T.);
#288=ORIENTED_EDGE('',*,*,#206,.F.);
#289=ORIENTED_EDGE('',*,*,#196,.F.);
#290=ORIENTED_EDGE('',*,*,#217,.F.);
#291=ORIENTED_EDGE('',*,*,#205,.T.);
#292=ORIENTED_EDGE('',*,*,#209,.F.);
#293=ORIENTED_EDGE('',*,*,#218,.F.);
#294=ORIENTED_EDGE('',*,*,#219,.F.);
#295=ORIENTED_EDGE('',*,*,#218,.T.);
#296=ORIENTED_EDGE('',*,*,#212,.F.);
#297=ORIENTED_EDGE('',*,*,#220,.F.);
#298=ORIENTED_EDGE('',*,*,#221,.F.);
#299=ORIENTED_EDGE('',*,*,#220,.T.);
#300=ORIENTED_EDGE('',*,*,#211,.F.);
#301=ORIENTED_EDGE('',*,*,#199,.F.);
#302=ORIENTED_EDGE('',*,*,#177,.T.);
#303=ORIENTED_EDGE('',*,*,#187,.T.);
#304=ORIENTED_EDGE('',*,*,#184,.T.);
#305=ORIENTED_EDGE('',*,*,#181,.T.);
#306=ORIENTED_EDGE('',*,*,#217,.T.);
#307=ORIENTED_EDGE('',*,*,#219,.T.);
#308=ORIENTED_EDGE('',*,*,#221,.T.);
#309=ORIENTED_EDGE('',*,*,#198,.T.);
#310=ORIENTED_EDGE('',*,*,#215,.T.);
#311=ORIENTED_EDGE('',*,*,#202,.T.);
#312=PLANE('',#360);
#313=PLANE('',#364);
#314=PLANE('',#365);
#315=PLANE('',#366);
#316=PLANE('',#370);
#317=PLANE('',#371);
#318=PLANE('',#372);
#319=PLANE('',#373);
#320=PLANE('',#375);
#321=PLANE('',#379);
#322=PLANE('',#380);
#323=PLANE('',#381);
#324=PLANE('',#384);
#325=PLANE('',#385);
#326=PLANE('',#386);
#327=ADVANCED_FACE('',(#31),#312,.F.);
#328=ADVANCED_FACE('',(#32),#27,.T.);
#329=ADVANCED_FACE('',(#33),#313,.F.);
#330=ADVANCED_FACE('',(#34),#314,.F.);
#331=ADVANCED_FACE('',(#35,#15),#315,.T.);
#332=ADVANCED_FACE('',(#36),#28,.T.);
#333=ADVANCED_FACE('',(#37),#316,.T.);
#334=ADVANCED_FACE('',(#38),#317,.T.);
#335=ADVANCED_FACE('',(#39),#318,.T.);
#336=ADVANCED_FACE('',(#40,#16),#319,.T.);
#337=ADVANCED_FACE('',(#41,#17),#320,.F.);
#338=ADVANCED_FACE('',(#42),#29,.F.);
#339=ADVANCED_FACE('',(#43),#321,.T.);
#340=ADVANCED_FACE('',(#44),#322,.T.);
#341=ADVANCED_FACE('',(#45),#323,.T.);
#342=ADVANCED_FACE('',(#46),#30,.F.);
#343=ADVANCED_FACE('',(#47),#324,.T.);
#344=ADVANCED_FACE('',(#48),#325,.T.);
#345=ADVANCED_FACE('',(#49,#18),#326,.T.);
#346=CLOSED_SHELL('',(#327,#328,#329,#330,#331,#332,#333,#334,#335,#336,
#337,#338,#339,#340,#341,#342,#343,#344,#345));
#347=DERIVED_UNIT_ELEMENT(#349,1.);
#348=DERIVED_UNIT_ELEMENT(#582,3.);
#349=(
MASS_UNIT()
NAMED_UNIT(*)
SI_UNIT(.KILO.,.GRAM.)
);
#350=DERIVED_UNIT((#347,#348));
#351=MEASURE_REPRESENTATION_ITEM('density measure',
POSITIVE_RATIO_MEASURE(7850.),#350);
#352=PROPERTY_DEFINITION_REPRESENTATION(#357,#354);
#353=PROPERTY_DEFINITION_REPRESENTATION(#358,#355);
#354=REPRESENTATION('material name',(#356),#577);
#355=REPRESENTATION('density',(#351),#577);
#356=DESCRIPTIVE_REPRESENTATION_ITEM('Steel','Steel');
#357=PROPERTY_DEFINITION('material property','material name',#587);
#358=PROPERTY_DEFINITION('material property','density of part',#587);
#359=AXIS2_PLACEMENT_3D('placement',#480,#387,#388);
#360=AXIS2_PLACEMENT_3D('',#481,#389,#390);
#361=AXIS2_PLACEMENT_3D('',#490,#395,#396);
#362=AXIS2_PLACEMENT_3D('',#492,#397,#398);
#363=AXIS2_PLACEMENT_3D('',#495,#400,#401);
#364=AXIS2_PLACEMENT_3D('',#496,#402,#403);
#365=AXIS2_PLACEMENT_3D('',#502,#407,#408);
#366=AXIS2_PLACEMENT_3D('',#505,#411,#412);
#367=AXIS2_PLACEMENT_3D('',#510,#414,#415);
#368=AXIS2_PLACEMENT_3D('',#514,#418,#419);
#369=AXIS2_PLACEMENT_3D('',#518,#421,#422);
#370=AXIS2_PLACEMENT_3D('',#520,#424,#425);
#371=AXIS2_PLACEMENT_3D('',#524,#428,#429);
#372=AXIS2_PLACEMENT_3D('',#533,#434,#435);
#373=AXIS2_PLACEMENT_3D('',#542,#440,#441);
#374=AXIS2_PLACEMENT_3D('',#547,#444,#445);
#375=AXIS2_PLACEMENT_3D('',#548,#446,#447);
#376=AXIS2_PLACEMENT_3D('',#550,#448,#449);
#377=AXIS2_PLACEMENT_3D('',#556,#453,#454);
#378=AXIS2_PLACEMENT_3D('',#557,#455,#456);
#379=AXIS2_PLACEMENT_3D('',#559,#458,#459);
#380=AXIS2_PLACEMENT_3D('',#561,#461,#462);
#381=AXIS2_PLACEMENT_3D('',#563,#464,#465);
#382=AXIS2_PLACEMENT_3D('',#564,#466,#467);
#383=AXIS2_PLACEMENT_3D('',#566,#468,#469);
#384=AXIS2_PLACEMENT_3D('',#568,#471,#472);
#385=AXIS2_PLACEMENT_3D('',#572,#475,#476);
#386=AXIS2_PLACEMENT_3D('',#574,#478,#479);
#387=DIRECTION('axis',(0.,0.,1.));
#388=DIRECTION('refdir',(1.,0.,0.));
#389=DIRECTION('center_axis',(-1.,0.,0.));
#390=DIRECTION('ref_axis',(0.,-1.,0.));
#391=DIRECTION('',(0.,-1.,0.));
#392=DIRECTION('',(0.,0.,1.));
#393=DIRECTION('',(0.,-1.,0.));
#394=DIRECTION('',(0.,0.,1.));
#395=DIRECTION('center_axis',(0.,0.,1.));
#396=DIRECTION('ref_axis',(-1.,0.,0.));
#397=DIRECTION('center_axis',(0.,0.,-1.));
#398=DIRECTION('ref_axis',(-1.,0.,0.));
#399=DIRECTION('',(0.,0.,1.));
#400=DIRECTION('center_axis',(0.,0.,-1.));
#401=DIRECTION('ref_axis',(-1.,0.,0.));
#402=DIRECTION('center_axis',(1.,0.,0.));
#403=DIRECTION('ref_axis',(0.,1.,0.));
#404=DIRECTION('',(0.,1.,0.));
#405=DIRECTION('',(0.,0.,1.));
#406=DIRECTION('',(0.,1.,0.));
#407=DIRECTION('center_axis',(8.13819078806024E-17,1.,0.));
#408=DIRECTION('ref_axis',(-1.,8.13819078806024E-17,0.));
#409=DIRECTION('',(-1.,8.13819078806024E-17,0.));
#410=DIRECTION('',(-1.,8.13819078806024E-17,0.));
#411=DIRECTION('center_axis',(0.,0.,-1.));
#412=DIRECTION('ref_axis',(1.,0.,0.));
#413=DIRECTION('',(0.,-1.,0.));
#414=DIRECTION('center_axis',(0.,0.,1.));
#415=DIRECTION('ref_axis',(0.866025403784439,0.5,0.));
#416=DIRECTION('',(0.,1.,0.));
#417=DIRECTION('',(1.,0.,0.));
#418=DIRECTION('center_axis',(0.,0.,1.));
#419=DIRECTION('ref_axis',(0.866025403784439,0.5,0.));
#420=DIRECTION('',(0.,0.,1.));
#421=DIRECTION('center_axis',(0.,0.,1.));
#422=DIRECTION('ref_axis',(1.,-1.83697019872103E-16,0.));
#423=DIRECTION('',(0.,0.,1.));
#424=DIRECTION('center_axis',(-1.,0.,0.));
#425=DIRECTION('ref_axis',(0.,-1.,0.));
#426=DIRECTION('',(0.,0.,1.));
#427=DIRECTION('',(0.,-1.,0.));
#428=DIRECTION('center_axis',(0.,1.,0.));
#429=DIRECTION('ref_axis',(-1.,0.,0.));
#430=DIRECTION('',(1.,0.,0.));
#431=DIRECTION('',(0.,0.,1.));
#432=DIRECTION('',(-1.,0.,0.));
#433=DIRECTION('',(0.,0.,1.));
#434=DIRECTION('center_axis',(-0.992528252530284,-0.122015031570623,0.));
#435=DIRECTION('ref_axis',(0.122015031570623,-0.992528252530284,0.));
#436=DIRECTION('',(-0.122015031570623,0.992528252530284,0.));
#437=DIRECTION('',(0.,0.,1.));
#438=DIRECTION('',(0.122015031570623,-0.992528252530284,0.));
#439=DIRECTION('',(0.,0.,1.));
#440=DIRECTION('center_axis',(0.,0.,1.));
#441=DIRECTION('ref_axis',(-1.,0.,0.));
#442=DIRECTION('',(1.,0.,0.));
#443=DIRECTION('',(0.,1.,0.));
#444=DIRECTION('center_axis',(0.,0.,-1.));
#445=DIRECTION('ref_axis',(-1.,0.,0.));
#446=DIRECTION('center_axis',(0.,0.,1.));
#447=DIRECTION('ref_axis',(-1.,0.,0.));
#448=DIRECTION('center_axis',(0.,0.,-1.));
#449=DIRECTION('ref_axis',(0.866025403784439,0.5,0.));
#450=DIRECTION('',(1.12276627830665E-16,-1.,0.));
#451=DIRECTION('',(0.,1.,0.));
#452=DIRECTION('',(0.122015031570624,0.992528252530284,0.));
#453=DIRECTION('center_axis',(0.,0.,1.));
#454=DIRECTION('ref_axis',(-1.,0.,0.));
#455=DIRECTION('center_axis',(0.,0.,1.));
#456=DIRECTION('ref_axis',(-1.,0.,0.));
#457=DIRECTION('',(0.,0.,1.));
#458=DIRECTION('center_axis',(-1.,-1.12276627830665E-16,0.));
#459=DIRECTION('ref_axis',(1.12276627830665E-16,-1.,0.));
#460=DIRECTION('',(-1.12276627830665E-16,1.,0.));
#461=DIRECTION('center_axis',(1.,0.,0.));
#462=DIRECTION('ref_axis',(0.,1.,0.));
#463=DIRECTION('',(0.,0.,1.));
#464=DIRECTION('center_axis',(0.,-1.,0.));
#465=DIRECTION('ref_axis',(1.,0.,0.));
#466=DIRECTION('center_axis',(0.,0.,1.));
#467=DIRECTION('ref_axis',(0.866025403784439,0.5,0.));
#468=DIRECTION('center_axis',(0.,0.,1.));
#469=DIRECTION('ref_axis',(0.866025403784439,0.5,0.));
#470=DIRECTION('',(0.,0.,1.));
#471=DIRECTION('center_axis',(0.992528252530284,-0.122015031570624,0.));
#472=DIRECTION('ref_axis',(0.122015031570624,0.992528252530284,0.));
#473=DIRECTION('',(-0.122015031570624,-0.992528252530284,0.));
#474=DIRECTION('',(0.,0.,1.));
#475=DIRECTION('center_axis',(1.,0.,0.));
#476=DIRECTION('ref_axis',(0.,1.,0.));
#477=DIRECTION('',(0.,-1.,0.));
#478=DIRECTION('center_axis',(0.,0.,-1.));
#479=DIRECTION('ref_axis',(-1.,0.,0.));
#480=CARTESIAN_POINT('',(0.,0.,0.));
#481=CARTESIAN_POINT('Origin',(27.2842712474619,1.33226762955019E-14,27.));
#482=CARTESIAN_POINT('',(27.2842712474619,1.33226762955019E-14,27.));
#483=CARTESIAN_POINT('',(27.2842712474619,-51.,27.));
#484=CARTESIAN_POINT('',(27.2842712474619,-5.92893218813452,27.));
#485=CARTESIAN_POINT('',(27.2842712474619,1.77635683940025E-14,29.));
#486=CARTESIAN_POINT('',(27.2842712474619,1.33226762955019E-14,27.));
#487=CARTESIAN_POINT('',(27.2842712474619,-51.,29.));
#488=CARTESIAN_POINT('',(27.2842712474619,1.33226762955019E-14,29.));
#489=CARTESIAN_POINT('',(27.2842712474619,-51.,27.));
#490=CARTESIAN_POINT('Origin',(0.,0.,27.));
#491=CARTESIAN_POINT('',(-27.2842712474619,0.,27.));
#492=CARTESIAN_POINT('Origin',(0.,0.,27.));
#493=CARTESIAN_POINT('',(-27.2842712474619,0.,29.));
#494=CARTESIAN_POINT('',(-27.2842712474619,0.,27.));
#495=CARTESIAN_POINT('Origin',(0.,0.,29.));
#496=CARTESIAN_POINT('Origin',(-27.2842712474619,-51.,27.));
#497=CARTESIAN_POINT('',(-27.2842712474619,-51.,27.));
#498=CARTESIAN_POINT('',(-27.2842712474619,-31.4289321881345,27.));
#499=CARTESIAN_POINT('',(-27.2842712474619,-51.,29.));
#500=CARTESIAN_POINT('',(-27.2842712474619,-51.,27.));
#501=CARTESIAN_POINT('',(-27.2842712474619,-51.,29.));
#502=CARTESIAN_POINT('Origin',(27.2842712474619,-51.,27.));
#503=CARTESIAN_POINT('',(13.6421356237309,-51.,27.));
#504=CARTESIAN_POINT('',(27.2842712474619,-51.,29.));
#505=CARTESIAN_POINT('Origin',(0.,-11.857864376269,29.));
#506=CARTESIAN_POINT('',(-28.2842712474619,-8.88178419700125E-15,29.));
#507=CARTESIAN_POINT('',(-28.2842712474619,-52.,29.));
#508=CARTESIAN_POINT('',(-28.2842712474619,-5.92893218813452,29.));
#509=CARTESIAN_POINT('',(28.2842712474619,8.88178419700125E-15,29.));
#510=CARTESIAN_POINT('Origin',(0.,0.,29.));
#511=CARTESIAN_POINT('',(28.2842712474619,-52.,29.));
#512=CARTESIAN_POINT('',(28.2842712474619,-31.9289321881345,29.));
#513=CARTESIAN_POINT('',(-14.142135623731,-52.,29.));
#514=CARTESIAN_POINT('Origin',(0.,0.,2.));
#515=CARTESIAN_POINT('',(-28.2842712474619,1.73191211247099E-15,54.));
#516=CARTESIAN_POINT('',(-28.2842712474619,0.,2.));
#517=CARTESIAN_POINT('',(28.2842712474619,-8.88178419700125E-15,54.));
#518=CARTESIAN_POINT('Origin',(0.,0.,54.));
#519=CARTESIAN_POINT('',(28.2842712474619,0.,2.));
#520=CARTESIAN_POINT('Origin',(-28.2842712474619,0.,2.));
#521=CARTESIAN_POINT('',(-28.2842712474619,-52.,54.));
#522=CARTESIAN_POINT('',(-28.2842712474619,-52.,2.));
#523=CARTESIAN_POINT('',(-28.2842712474619,1.73191211247099E-15,54.));
#524=CARTESIAN_POINT('Origin',(26.2842712474619,-50.,2.));
#525=CARTESIAN_POINT('',(-26.2842712474619,-50.,27.));
#526=CARTESIAN_POINT('',(26.2842712474619,-50.,27.));
#527=CARTESIAN_POINT('',(13.142135623731,-50.,27.));
#528=CARTESIAN_POINT('',(-26.2842712474619,-50.,50.));
#529=CARTESIAN_POINT('',(-26.2842712474619,-50.,2.));
#530=CARTESIAN_POINT('',(26.2842712474619,-50.,50.));
#531=CARTESIAN_POINT('',(-9.18485099360515E-16,-50.,50.));
#532=CARTESIAN_POINT('',(26.2842712474619,-50.,2.));
#533=CARTESIAN_POINT('Origin',(25.000000372529,0.,2.));
#534=CARTESIAN_POINT('',(26.2842712474619,-10.4468696263449,27.));
#535=CARTESIAN_POINT('',(25.000000372529,0.,27.));
#536=CARTESIAN_POINT('',(25.5319181658086,-4.32687211614546,27.));
#537=CARTESIAN_POINT('',(26.2842712474619,-10.4468696263449,50.));
#538=CARTESIAN_POINT('',(26.2842712474619,-10.4468696263449,2.));
#539=CARTESIAN_POINT('',(25.000000372529,0.,50.));
#540=CARTESIAN_POINT('',(26.2842712474619,-10.4468696263449,50.));
#541=CARTESIAN_POINT('',(25.000000372529,0.,2.));
#542=CARTESIAN_POINT('Origin',(0.,-11.8578643762691,54.));
#543=CARTESIAN_POINT('',(28.2842712474619,-52.,54.));
#544=CARTESIAN_POINT('',(-28.2842712474619,-52.,54.));
#545=CARTESIAN_POINT('',(28.2842712474619,-52.,54.));
#546=CARTESIAN_POINT('',(7.5,1.3019609498898E-15,54.));
#547=CARTESIAN_POINT('Origin',(0.,2.22044604925031E-15,54.));
#548=CARTESIAN_POINT('Origin',(0.,-11.8578643762691,50.));
#549=CARTESIAN_POINT('',(-25.000000372529,0.,50.));
#550=CARTESIAN_POINT('Origin',(0.,0.,50.));
#551=CARTESIAN_POINT('',(26.2842712474619,-50.,50.));
#552=CARTESIAN_POINT('',(-26.2842712474619,-10.4468696263449,50.));
#553=CARTESIAN_POINT('',(-26.2842712474619,-50.,50.));
#554=CARTESIAN_POINT('',(-26.2842712474619,-10.4468696263449,50.));
#555=CARTESIAN_POINT('',(7.5,3.13893114861083E-15,50.));
#556=CARTESIAN_POINT('Origin',(0.,2.22044604925031E-15,50.));
#557=CARTESIAN_POINT('Origin',(0.,2.22044604925031E-15,50.));
#558=CARTESIAN_POINT('',(7.5,3.13893114861083E-15,50.));
#559=CARTESIAN_POINT('Origin',(26.2842712474619,-10.4468696263449,2.));
#560=CARTESIAN_POINT('',(26.2842712474619,-11.152367001307,27.));
#561=CARTESIAN_POINT('Origin',(28.2842712474619,-52.,2.));
#562=CARTESIAN_POINT('',(28.2842712474619,-52.,2.));
#563=CARTESIAN_POINT('Origin',(-28.2842712474619,-52.,2.));
#564=CARTESIAN_POINT('Origin',(0.,0.,2.));
#565=CARTESIAN_POINT('',(-25.000000372529,0.,27.));
#566=CARTESIAN_POINT('Origin',(0.,0.,27.));
#567=CARTESIAN_POINT('',(-25.000000372529,0.,2.));
#568=CARTESIAN_POINT('Origin',(-26.2842712474619,-10.4468696263449,2.));
#569=CARTESIAN_POINT('',(-26.2842712474619,-10.4468696263449,27.));
#570=CARTESIAN_POINT('',(-26.174053603275,-9.55030692931791,27.));
#571=CARTESIAN_POINT('',(-26.2842712474619,-10.4468696263449,2.));
#572=CARTESIAN_POINT('Origin',(-26.2842712474619,-50.,2.));
#573=CARTESIAN_POINT('',(-26.2842712474619,-30.9289321881345,27.));
#574=CARTESIAN_POINT('Origin',(0.,-11.857864376269,27.));
#575=UNCERTAINTY_MEASURE_WITH_UNIT(LENGTH_MEASURE(0.01),#581,
'DISTANCE_ACCURACY_VALUE',
'Maximum model space distance between geometric entities at asserted c
onnectivities');
#576=UNCERTAINTY_MEASURE_WITH_UNIT(LENGTH_MEASURE(0.01),#581,
'DISTANCE_ACCURACY_VALUE',
'Maximum model space distance between geometric entities at asserted c
onnectivities');
#577=(
GEOMETRIC_REPRESENTATION_CONTEXT(3)
GLOBAL_UNCERTAINTY_ASSIGNED_CONTEXT((#575))
GLOBAL_UNIT_ASSIGNED_CONTEXT((#581,#580,#579))
REPRESENTATION_CONTEXT('','3D')
);
#578=(
GEOMETRIC_REPRESENTATION_CONTEXT(3)
GLOBAL_UNCERTAINTY_ASSIGNED_CONTEXT((#576))
GLOBAL_UNIT_ASSIGNED_CONTEXT((#581,#580,#579))
REPRESENTATION_CONTEXT('','3D')
);
#579=(
NAMED_UNIT(*)
SI_UNIT($,.STERADIAN.)
SOLID_ANGLE_UNIT()
);
#580=(
NAMED_UNIT(*)
PLANE_ANGLE_UNIT()
SI_UNIT($,.RADIAN.)
);
#581=(
LENGTH_UNIT()
NAMED_UNIT(*)
SI_UNIT(.MILLI.,.METRE.)
);
#582=(
LENGTH_UNIT()
NAMED_UNIT(*)
SI_UNIT($,.METRE.)
);
#583=SHAPE_DEFINITION_REPRESENTATION(#584,#585);
#584=PRODUCT_DEFINITION_SHAPE('',$,#587);
#585=SHAPE_REPRESENTATION('',(#359),#577);
#586=PRODUCT_DEFINITION_CONTEXT('part definition',#591,'design');
#587=PRODUCT_DEFINITION('Pencil Sharpener','Pencil Sharpener v5',#588,#586);
#588=PRODUCT_DEFINITION_FORMATION('',$,#593);
#589=PRODUCT_RELATED_PRODUCT_CATEGORY('Pencil Sharpener v5',
'Pencil Sharpener v5',(#593));
#590=APPLICATION_PROTOCOL_DEFINITION('international standard',
'automotive_design',2009,#591);
#591=APPLICATION_CONTEXT(
'Core Data for Automotive Mechanical Design Process');
#592=PRODUCT_CONTEXT('part definition',#591,'mechanical');
#593=PRODUCT('Pencil Sharpener','Pencil Sharpener v5',$,(#592));
#594=PRESENTATION_STYLE_ASSIGNMENT((#595));
#595=SURFACE_STYLE_USAGE(.BOTH.,#596);
#596=SURFACE_SIDE_STYLE('',(#597));
#597=SURFACE_STYLE_FILL_AREA(#598);
#598=FILL_AREA_STYLE('Steel - Satin',(#599));
#599=FILL_AREA_STYLE_COLOUR('Steel - Satin',#600);
#600=COLOUR_RGB('Steel - Satin',0.627450980392157,0.627450980392157,0.627450980392157);
ENDSEC;
END-ISO-10303-21;
